PickPickPick

Russian Fan Portal Pink Floyd. Биография группы, дискография, фотоархив. Новости, концерты, статьи!

Menu Pink Floyd
 
Фотографии Pink Floyd Фотографии Сида Барретта Фотографии Ника Мейсона Фотографии Ричарда Райта Фотографии Дэвида Гилмора Фотографии Роджера Уотерса
 
Floyd Контакты

Floyd Blog

 

The Piper At The

 
 

Форум Pink Floyd

Яндекс цитирования

 



LOST FOR WORDS 3
OUTRO SOLO:
C G
e-------------------------------------------------------
B-------------------------------------------------------
G------5-----5-------5-------5--------------------------
D------5h7---5-------5-------5--------------------------
A-----------------------5h7-------5h7--5---------5------
E-----------------------------------------5/7--------3--
C G
e-------------------------------------------------------------------
B------------------------------------------------8--7---------------
G---2/4---------------7--7---7h9---7----------7---------9--7--7--9--
D--------5-----7/9----------------------7/9-------------------------
A-------------------------------------------------------------------
E-------------------------------------------------------------------
Em D
e--------------------------------------------------------------------------
B--------------------------------------------------------------------------
G--------------------------------------------------------------------------
D---9/7---5h7---7h9-5----7p5----4--4--5---5/7----5--4--2-------------------
A------------------------------------------------------------5--3--3--2----
E------------------------------------------------------------------------3-
Em G
e----3/5----5-----------------------------------------
B----3/5----5----3/5----3----3/5----3----3/5---5------
G----------------2/4----2----2/4----2----2/4---4------
D-----------------------------------------------------
A-----------------------------------------------------
E-----------------------------------------------------
C G
e---------------10--10-------------------------------12--12b--12b--
B--------10/12-----------10p8----------8---------------------------
G---7/9-------------------9p7---9--7-------------------------------
D------------------------------------------------------------------
A------------------------------------------------------------------
E------------------------------------------------------------------
C Em
e---12b(13)-12-----------------------------------------------------
B---------------13--13-------------10/12--12\10--10----8--7b(8)r7--
G-------------------------12--12-----------------------------------
D------------------------------------------------------------------
A------------------------------------------------------------------
E------------------------------------------------------------------
D/F# C
e---------------------------------------------------------------
B---------------------------------------------------------------
G---7---7---------9(10)r9p7------7h9-p7---7---------------------
D------------7h9-------------9--------------9\5p5--5--7p5-------
A----------------------------------------------------------7p5--
E---------------------------------------------------------------
G
e------------------------------------------------------------------------
B---------------------------------------------------------------------8--
G--------------------------------7--------------------------7-----7/9----
D---5---5--5--5-------5---5--7/9---9\7p5---7p5------5---7/9--------------
A----------------5h7---------------------7-----7p5-----------------------
E------------------------------------------------------------------------
C G
e----------------------------------------------------------------
B-----10p8----12b(13)-(13)r12----12b(13)-12b(13)r12p10--10-8-8\7-
G----------------------------------------------------------------
D----------------------------------------------------------------
A----------------------------------------------------------------
E----------------------------------------------------------------
C Em D/F#
e------------------------------------------------------------------------
B------------------------------------------------------------------------
G---9-------7----------------------------7----------------------7--------
D-------------9\7p5-------5--5---7p5-7/9---9\7--5---5h7--7--7/9-7--5--4--
A--------------------7---------------------------------------------------
E------------------------------------------------------------------------
(fade into church bells)
e-------------------------------------------------------------
B-------------------------------------------------------------
G-------------------------------------------------------------
D---4b(5)-r4--------------------------------------------------
A--------------7--5-h7p5--------------------------------------
E------------------------5h7--5--3----------------------------
Menu Pink Floyd


Russian Fan Portal Pink Floyd. 2008 - 2018Хостинг от uCoz